donderdag 19 mei 2011

day 3 - rockin'

Hey there, don't got much time so I'll just be posting the tabs I'm learning atm!


1. All the Small Things - Blink 182



Tabbed by Simon Mooney (lasttraintostafford@yahoo.co.uk)

Yes, I know this has already been tabbed! But this sounds much more accurate 
and slightly easier to play fast. It's all played on one guitar from what I 
hear.  I was using the track from 'The Mark, Tom and Travis Show (The Enema 
Strikes Back)' as my reference.

My advice is to just crank up the distortion and play it! The song is very 
easy to play because it's only power chords and sing along to it.  The 
lyrics are not hard and are easily sung along with.


Intro/Bridge:

I am not going to tab the rhythm, you can get that from the cd, but use a 
strum not all downstrokes.  You can get the speed better that way :)

Intro

E||------------------||
B||------------------||
G||------------------||
D||-5--3-------------||
A||-5--3-------------||
E||-3--1-------------||


e||-----------------------------------------------||
B||----------6666-5555----------------------------||
G||-55555555-5555-5555----------------------------||
D||-55555555-3333-3333-55555555-5-x-x-x-x-3-3-3---||
A||-33333333-----------55555555-5-x-x-x-x-3-3-3---||
E||--------------------33333333-3-x-x-x-x-1-1-1---||


Verse:  (All the small things...)


e|-------------------------------------------------|
B|-------------------------------------------------|
G|-------------------------------------------------|
D|-555555555---------------------------------------|
A|-333333333-55555555-33333333-55555555------------|
E|-----------33333333-11111111-33333333------------|

|-----------------PALM MUTED-----------------------|

Bridge

E||--------||
B||--------||
G||-5-5-~--||
D||-5-5-~--||
A||-3-3-~--||
E||--------||


Chorus:  (Say it ain't so...)

E||---8---8---8---8---8---8---8---8---8---8---8--||
B||----------------------------------------------||
G||-5---5---5---5---5---5---5---5---5---5---5----||
D||----------------------------------------------||
A||----------------------------------------------||
E||----------------------------------------------||


e||----------------------------------------------------||
B||----------------------------------------------------||
G||---555555555555555555-------------------------------||
D||---555555555555555555-55555555-33333333-------------||
A||---333333333333333333-55555555-33333333-------------||
E||----------------------33333333-11111111-------------||


The small interlude after the chorus is pretty simple. As I don't know much 
about time signatures, just listen to the CD to get the rhythm.

Interlude:


e||--------------------------------------------------||
B||--------------------------------------------------||
G||-55555555-10101010-9999-777777777-x-x-x-x-5-5-5---||
D||-XXXXXXXX-X-X-X-X--XXXX-XXXXXXXXX-x-x-x-x-5-5-5---||
A||-33333333-8-8-8-8--7777-555555555-x-x-x-x-3-3-3---||
E||--------------------------------------------------||

Solo

The song goes into some kind of solo, that is all palm muted.

E||---------------------------------------------------------------||
B||---------------------------------------------------------------||
G||-5---5---5---5---5---5---5---5---5---5---5---5---4---4---4---4-||
D||---5---5---5---5---5---5---5---5---5---5---5---5---5---5---5---||
A||---------------------------------------------------------------||
E||---------------------------------------------------------------||

|--------------------------PALM MUTED-----------------------------||

Outro

e|-------------------------------------------------------------------|
B|-------------------------------------------------------------------|
G|-----------------------------------5-~-----------------------------|
D|-X-X-3------X-X-3-------X-X-3------5-~-----------------------------|
A|-X-X-3------X-X-3-------X-X-3------3-~-----------------------------|
E|-X-X-1------X-X-1-------X-X-1--------------------------------------|

Key of Symbols

~ Let Ring
x Palm Mute


Lyrics

All the small things
True care, truth brings
I'll take one lift
Your ride, best trip

Always, I know
You'll be at my show
Watching, waiting
Commiserating

Say it ain't so, I will not go
Turn the lights off, carry me home
Na na na na na na na na na na
Na na na na na na na na na na
Na na na na na na na na na na
Na na na na na na na na na na

Late night, come home
Work sucks, I know
She left me roses by the stairs
Surprises let me know she cares

Say it ain't so, I will not go
Turn the lights off, carry me home
Na na na na na na na na na na
Na na na na na na na na na na
Na na na na na na na na na na
Na na na na na na na na na na

Say it ain't so, I will not go
Turn the lights off, carry me home
Keep your head still, I'll be your thrill
The night will go on, my little windmill

Say it ain't so, I will not go (na na na na na na na na na na)
Turn the lights off, carry me home (na na na na na na na na na na)
Keep your head still, I'll be your thrill (na na na na na na na na na na)
The night will go on, the night will go on (na na na na na na na na na na)
My little windmill

There we have it! Hope you all hava a lot of fun with this tab. Visit my 
Blink 182 Tab site at www.skaforce.tripod.com, every Blink album track is 
tabbed! Any comments/suggestions or flames should be directed to 
lasttraintostafford@yahoo.co.uk, although I believe this to be 100% 
accurate!

2. Natural High - Hammerfall

tabbed by abhammer

try to listen de song and follow the tap and the lyrics and it will be a lot easier to 
this song

intro
|-----------------------------------------------------------------------|
|-----------------------------------------------------------------------|
|-------------------------9---------------------------------------------|
|----10-9---------------9---9----------9-7-5-------------5-9------------|
|-7--------10-7-----------------------------------------------10--------|
|--------------------------------7---------------7----------------------|x2

Last nigth i had a vivid dream
I found a place where nothing is what its seems,
I’m bound to walk this earth alone,
I am a hunter and the heir to the throne,
|--------------------------------------------------------------------------------------|
|--------------------------------------------------------------------------------------|
|---9--9--------9--------9-9--------9--------------------------------------------------|
|---9--9--------9--------9-9--------9--------9-9------9------9-9--------9--------------|
|---7--7---7-7--7--7-7---7-7----7-7-7--7--7--9-9------9------9-9--------9--------------|
|--------------------------------------------7-7-7-7--7-7-7--7-7-7-7--7-7-7------------|x4

|-------------------------------------------------------------|
|-------------------------------------------------------------|
|-------------------------------------------------------------|
|--7----------5-----------------------------------------------|
|--7----------5-----------------------------------------------|
|--5--5--5----3--3--3-----------------------------------------|

The chase of blood and sweet revenge,
It keeps on hammering in my head,
The urge to kill is getting stronger,
I’m south of heaven, north of hell,

|-------------------------------------------------------------------------------|
|-------------------------------------------------------------------------------|
|-------------------------------------------------------------------------------|
|-2--------------5-2--------------5-2--------------5-5-7------------------------|
|-2--------------5-2--------------5-2--------------5-5-7------------------------|
|-0-0-0-0-0-0-0--3-0-0-0-0-0-0-0--3-0-0-0-0-0-0-0--3-3-5------------------------|
|-------------------------------------------------------------------------------|
|-------------------------------------------------------------------------------|
|-------------------------------------------------------------------------------|
|-2--------------5-2--------------5-2--------------5-4-3------------------------|
|-2--------------5-2--------------5-2--------------5-4-3------------------------|
|-0-0-0-0-0-0-0--3-0-0-0-0-0-0-0--3-0-0-0-0-0-0-0--3-2-1------------------------|  /
play twice


My final place to reeeeeest,
|----------------------------------------------------------------|
|----------------------------------------------------------------|
|----------------------7-----------------------------------------|
|--2----------------(2)7-----------------------------------------|
|--2----------------(2)5-----------------------------------------|
|--0----------------(0)------------------------------------------|

Surrender your soul,  Surrender your pride, Please enter my dream,
|---------------------------------------------------------------------------------------|
|---------------------------------------------------------------------------------------|
|---------(7)----------------------------9-----------------(9)--------------------------|
|---------(7)--7--------------------(7)--9-----------------(9)--9-----------------------|
|---------(5)--7--------------------(7)--7-----------------(7)--9-----------------------|
|--------------5--------------------(5)-------------------------7-----------------------|

 Find your natural high, You’ve got nothing to fear,  Cause your rebirth
|-------------------------------------------------------------------------------------|
|-------------------------------------------------------------------------------------|
|----------7---7-------------------------------(7)------------------------------------|
|-7----5---7---7-------------------------------(7)7------------------(7)--------------|
|-7----5---5---5-------------------------------(5)7------------------(7)--------------|
|-5----3------------------------------------------5------------------(5)--------------|
iiiiiiiiiiiiiiiiiiiiiiiiiiiiiiiis neeeeeeeeeeeeeeeeaaaaar,
|---------------------------------------------------------------------------------------|
|---------------------------------------------------------------------------------------|
|---------------------------------------------------------------------------------------|
|------------------------5-2---------------52-------------------------------------------|
|------------------------5-2---------------52-------------------------------------------|
|-----0-0-0-0-0-0-0-0-0--3-0-0-0-0-0-0-0-0-30-------------------------------------------|

(no lyrics)
|-------------------------------------------------------------------|
|-------------------------------------------------------------------|
|-------------------------9-----------------------------------------|
|----10-9---------------9---9----------9-7-5-------------5-9--------|
|-7--------10-7------------------------------------------------10---|
|--------------------------------7---------------7------------------|x2


The battle rages deep inside,
No where to run for my eternal bride,
And when the darkness comes around,
I come alive, cause for your sweet blood I am bound,
|--------------------------------------------------------------------------------------|
|--------------------------------------------------------------------------------------|
|---9--9--------9--------9-9--------9--------------------------------------------------|
|---9--9--------9--------9-9--------9--------9-9------9------9-9--------9--------------|
|---7--7---7-7--7--7-7---7-7----7-7-7--7--7--9-9------9------9-9--------9--------------|
|--------------------------------------------7-7-7-7--7-7-7--7-7-7-7--7-7-7------------|x4

|---------------------------------------------------|
|---------------------------------------------------|
|---------------------------------------------------|
|--7----------5-------------------------------------|
|--7----------5-------------------------------------|
|--5--5--5----3--3--3-------------------------------|


I taste your blood so bitter sweet,
Come ease my pain get on your knees,
You know throughout is meant to be,
Forever missed out what it seems,
|------------------------------------------------------------------------------------|
|------------------------------------------------------------------------------------|
|------------------------------------------------------------------------------------|
|-2--------------5-2--------------5-2--------------5-5-7-----------------------------|
|-2--------------5-2--------------5-2--------------5-5-7-----------------------------|
|-0-0-0-0-0-0-0--3-0-0-0-0-0-0-0--3-0-0-0-0-0-0-0--3-3-5-----------------------------|

|------------------------------------------------------------------------------------|
|------------------------------------------------------------------------------------|
|------------------------------------------------------------------------------------|
|-2--------------5-2--------------5-2--------------5-4-3-----------------------------|
|-2--------------5-2--------------5-2--------------5-4-3-----------------------------|
|-0-0-0-0-0-0-0--3-0-0-0-0-0-0-0--3-0-0-0-0-0-0-0--3-2-1-----------------------------|
plays x2

This is your final screaaaaaaaa
|------------------------------------------------------------|
|------------------------------------------------------------|
|--------------------------7---------------------------------|
|--2--------------------(2)7---------------------------------|
|--2--------------------(2)5---------------------------------|
|--0--------------------(0)----------------------------------|
Surrender your soul,  Surrender your pride, Please enter my dream,
|--------------------------------------------------------------------------------------|
|--------------------------------------------------------------------------------------|
|-----------(7)-------------------------9-----------------(9)--------------------------|
|-----------(7)--7-----------------(7)--9-----------------(9)--9-----------------------|
|-----------(5)--7-----------------(7)--7-----------------(7)--9-----------------------|
|----------------5-----------------(5)-------------------------7-----------------------|

 Find your natural high, You’ve got nothing to fear,  Cause your rebirth
|--------------------------------------------------------------------------------------|
|--------------------------------------------------------------------------------------|
|----------7---7-----------------------------(7)---------------------------------------|
|-7----5---7---7-----------------------------(7)7----------------------(7)-------------|
|-7----5---5---5-----------------------------(5)7----------------------(7)-------------|
|-5----3----------------------------------------5----------------------(5)-------------|
iiiiiiiiiiiiiiiiiiiiiiiiiiiiiiiis neeeeeeeeeeeeeeeeaaaaar,
|----------------------------------------------------------------------------------|
|----------------------------------------------------------------------------------|
|----------------------------------------------------------------------------------|
|------------------------5-2---------------5-2-------------------------------------|
|------------------------5-2---------------5-2-------------------------------------|
|-----0-0-0-0-0-0-0-0-0--3-0-0-0-0-0-0-0-0-3-0-------------------------------------|
Pity the last one doesn't contain the solo. Oh well, maybe better so I don't spend hours failing :p See ya later!

24 opmerkingen:

  1. Holy! xD thats a huge post but its cool :3 i remember when i started learning guitar, but then i gave up on it.. ._. lack of time

    BeantwoordenVerwijderen
  2. Oh tabs
    Really nice!
    Thanks for sharing

    BeantwoordenVerwijderen
  3. i gave these tabs to my lil cousin since he plays guitar and woah they were awesome

    BeantwoordenVerwijderen
  4. wow i seriously just learned to play this

    BeantwoordenVerwijderen
  5. Great song choices. I wish I had the patience to learn guitar.

    BeantwoordenVerwijderen
  6. Hmmm... You know, I learned to read other kind of chorus. Sounds that the song is great!

    BeantwoordenVerwijderen
  7. Well i can play this on my guitar, because of your post! Thanks you very much for lesson.

    BeantwoordenVerwijderen
  8. You should try some British punk...its a lot easier than Blink 182!

    BeantwoordenVerwijderen
  9. and have tabs for bass guitar?

    BeantwoordenVerwijderen
  10. Impressed dude, keep up the blogging! I'm a fan!

    I'm getting my fender next month<3

    BeantwoordenVerwijderen
  11. Wow it takes a while to write out tabs, so big thanks guy! I'm saving these to practice later.

    BeantwoordenVerwijderen